Fuera de lugar

Intro: ReM      si/sol do/sol  ReM      si/sol do/sol  ReM      si/sol do/sol(3)   ReM
ReM
Hace tanto tiempo que estoy fuera de mi hogar
		FaM                        DoM
Que ahora que estoy en la puerta no sé si debo de entrar
	ReM
La sonrisa de mi hijo tal vez me resulte extraña
	FaM                     DoM                     mim     DoM                     ReM
Y el sabor de mi mujer puede que no sea igual,  sea igual             uuhh sea igual
E||--------------
B||--12--10--7---
G||--12--10--7---
D||--------------
A||--------------
E||--------------

	Estrib:
		 DoM          ReM
	No sé si sí no sé si no
		      DoM               ReM
	Lo que está claro es que ya estoy
		DoM          SibM  DoM   ReM
	No sé si sí no sé si no fuera de lugar

yeah ReM FaM DoM SolM X4
E||------------|-------------------|-------------------|---------|--------------|-----------------|------------------|------------------|
B||--12--10----|-------------------|-------------------|---------|--13----13----|--13--13---------|------------------|------------------|
G||--12--10----|-------------10----|--12--13-1210------|-1012----|--14----14----|--14--14-1210----|--1210------------|------------------|
D||------------|--12----1012-------|----------------12-|---------|--------------|-----------------|------12----10----|------------------|
A||------------|-------------------|-------------------|---------|--------------|-----------------|---------------12-|--10-8------89----|
E||------------|-------------------|-------------------|---------|--------------|-----------------|------------------|-------10-8----10-|

E||------------|-------------------|-------------------|---------|--------------|-----------------|------------------|------------------|
B||--12--10----|-------------------|-------------------|---------|--13----13----|--13--13---------|------------------|------------------|
G||--12--10----|-------------10----|--12--13-1210------|-1012----|--14----14----|--14--14-1210----|--1210------------|------------------|
D||------------|--12----1012-------|----------------12-|---------|--------------|-----------------|------12--10-12---|------------------|
A||------------|-------------------|-------------------|---------|--------------|-----------------|---------------10-|-12-8--------12-12|
E||------------|-------------------|-------------------|---------|--------------|-----------------|------------------|------10-8-10-----|

	ReM
Nunca tuve condiciones como jefe de mi clan
	FaM                     DoM
No logré traer comida a mi nido familiar
	ReM
Me pasaba el día sentado viendo pájaros volar
	FaM                    DoM              mim  DoM  ReM
No servía para padre, no servía para amar

estrib X2
	ReM
Desde que cantaba el gallo hasta la hora de cenar
       FaM                                  DoM
Las horas no eran horas solo un trámite ideal
ReM
Miraba el cielo perdido, pensando qué hago aquí
       FaM                                                    DoM            mim  DoM
Esta vida me está ahogando y me siento malgastado necesito ya saliiiiir
		ReM
uuhh ya salir

estrib X2
ReM                                     FaM
Ya no sé si vengo ya no sé si debo ir,  Lo único que quiero es un lugar donde dormir
DoM                                 SolM
Miro para alante miro para atrás, Y siempre me encuentro fuera de lugar


Acordes raros:

si/sol = [020033]
do/sol = [030033]
SibM   = [113331]

Versión Alternativa:

Bueno ya sabemos, que són: RE M, FA M, DO M, Y SOL M, aparte del MI m. Pero en realidad, Carlos usa algunos mas variados, que podriamos decir que son la ''fusión'' de dos o mas acordes.
IMPORTANTE: Esta canción (al menos, en esta versión) requiere una cierta afinacion especial (que seguro conocereis) de la sexta cuerda, en vez de el Mi al que estamos acostumbrados de afinar. Es muy facil. En vez del Mi, debemos rebajarlo un tono menos. Yo lo afino perfectamente, comparandola con la 4ª cuerda, y debemos obtener como resultado, un RE. Y ya esta, listos para empezar.

Bueno, los acordes, supongo que sabreis situarlos en la canción:

RE Mayor.

MI ---------X--------------
SI ---------3--------------
SOL ---------2--------------
RE ---------0--------------
LA ---------0--------------
RE ---------0--------------

FA H (pongo ''h'' por poner una letra, no porque sea ese el nombre. Aqui se encuentra lo que os comentaba, una fusion entre el DO M y el FA M)

MI --------X---------------
SI --------1---------------
SOL --------0---------------
RE --------3---------------
LA --------3---------------
RE --------X---------------

DO M

MI --------X---------------
SI --------1---------------
SOL --------0---------------
RE --------2---------------
LA --------3---------------
RE --------X---------------

SOL M

MI ---------3--------------
SI ---------0--------------
SOL ---------0--------------
RE ---------0--------------
LA ---------5--------------
RE ---------5--------------

MI m (para que no haya dudas)

MI --------0---------------
SI --------0---------------
SOL --------0---------------
RE --------2---------------
LA --------2---------------
RE --------2---------------

SOLO
Esta compuesto de acordes sencillos. Ya vereis.

MI ---5----5-7--8---8---8-7--10-----------.
SI ---3----3-5--6---5---5-5---8-----------.
SOL ---2----2-4--5---5---5-4---7-----------.
RE ---0----0-0--0---0---0-0---0-----------.
LA ---0----0-0--0---0---0-0---0-----------.
RE ---0----0-0--0---0---0-0---0-----------.

Bueno, como veis aqui en el solo, menos en un acorde, lo demas son siempre la misma posicion, arriba y abajo, lo digo, porque (como el solo se repite ) hay veces que no se queda en el: 10-8-7-0-0-0, si no que con esta posicion, avanza trastes arriba.
Anuncios
Fuera de lugar